ISO-10303-21;
HEADER;
FILE_DESCRIPTION(('FreeCAD Model'),'2;1');
FILE_NAME('Open CASCADE Shape Model','2023-10-17T10:56:57',(''),(''),
  'Open CASCADE STEP processor 7.6','FreeCAD','Unknown');
FILE_SCHEMA(('AUTOMOTIVE_DESIGN { 1 0 10303 214 1 1 1 1 }'));
ENDSEC;
DATA;
#1 = APPLICATION_PROTOCOL_DEFINITION('international standard',
  'automotive_design',2000,#2);
#2 = APPLICATION_CONTEXT(
  'core data for automotive mechanical design processes');
#3 = SHAPE_DEFINITION_REPRESENTATION(#4,#10);
#4 = PRODUCT_DEFINITION_SHAPE('','',#5);
#5 = PRODUCT_DEFINITION('design','',#6,#9);
#6 = PRODUCT_DEFINITION_FORMATION('','',#7);
#7 = PRODUCT('Band','Band','',(#8));
#8 = PRODUCT_CONTEXT('',#2,'mechanical');
#9 = PRODUCT_DEFINITION_CONTEXT('part definition',#2,'design');
#10 = ADVANCED_BREP_SHAPE_REPRESENTATION('',(#11,#15),#429);
#11 = AXIS2_PLACEMENT_3D('',#12,#13,#14);
#12 = CARTESIAN_POINT('',(0.,0.,0.));
#13 = DIRECTION('',(0.,0.,1.));
#14 = DIRECTION('',(1.,0.,-0.));
#15 = MANIFOLD_SOLID_BREP('',#16);
#16 = CLOSED_SHELL('',(#17,#57,#88,#119,#150,#181,#212,#243,#274,#305,
    #336,#367,#389,#409));
#17 = ADVANCED_FACE('',(#18),#52,.F.);
#18 = FACE_BOUND('',#19,.F.);
#19 = EDGE_LOOP('',(#20,#30,#38,#46));
#20 = ORIENTED_EDGE('',*,*,#21,.T.);
#21 = EDGE_CURVE('',#22,#24,#26,.T.);
#22 = VERTEX_POINT('',#23);
#23 = CARTESIAN_POINT('',(0.353553390593,-0.353553390593,0.));
#24 = VERTEX_POINT('',#25);
#25 = CARTESIAN_POINT('',(0.353553390593,-0.353553390593,25.));
#26 = LINE('',#27,#28);
#27 = CARTESIAN_POINT('',(0.353553390593,-0.353553390593,0.));
#28 = VECTOR('',#29,1.);
#29 = DIRECTION('',(0.,0.,1.));
#30 = ORIENTED_EDGE('',*,*,#31,.T.);
#31 = EDGE_CURVE('',#24,#32,#34,.T.);
#32 = VERTEX_POINT('',#33);
#33 = CARTESIAN_POINT('',(0.482962913145,-0.129409522551,25.));
#34 = LINE('',#35,#36);
#35 = CARTESIAN_POINT('',(0.353553390593,-0.353553390593,25.));
#36 = VECTOR('',#37,1.);
#37 = DIRECTION('',(0.5,0.866025403784,0.));
#38 = ORIENTED_EDGE('',*,*,#39,.F.);
#39 = EDGE_CURVE('',#40,#32,#42,.T.);
#40 = VERTEX_POINT('',#41);
#41 = CARTESIAN_POINT('',(0.482962913145,-0.129409522551,0.));
#42 = LINE('',#43,#44);
#43 = CARTESIAN_POINT('',(0.482962913145,-0.129409522551,0.));
#44 = VECTOR('',#45,1.);
#45 = DIRECTION('',(0.,0.,1.));
#46 = ORIENTED_EDGE('',*,*,#47,.F.);
#47 = EDGE_CURVE('',#22,#40,#48,.T.);
#48 = LINE('',#49,#50);
#49 = CARTESIAN_POINT('',(0.353553390593,-0.353553390593,0.));
#50 = VECTOR('',#51,1.);
#51 = DIRECTION('',(0.5,0.866025403784,0.));
#52 = PLANE('',#53);
#53 = AXIS2_PLACEMENT_3D('',#54,#55,#56);
#54 = CARTESIAN_POINT('',(0.353553390593,-0.353553390593,0.));
#55 = DIRECTION('',(-0.866025403784,0.5,0.));
#56 = DIRECTION('',(0.5,0.866025403784,0.));
#57 = ADVANCED_FACE('',(#58),#83,.F.);
#58 = FACE_BOUND('',#59,.F.);
#59 = EDGE_LOOP('',(#60,#61,#69,#77));
#60 = ORIENTED_EDGE('',*,*,#39,.T.);
#61 = ORIENTED_EDGE('',*,*,#62,.T.);
#62 = EDGE_CURVE('',#32,#63,#65,.T.);
#63 = VERTEX_POINT('',#64);
#64 = CARTESIAN_POINT('',(0.482962913145,0.129409522551,25.));
#65 = LINE('',#66,#67);
#66 = CARTESIAN_POINT('',(0.482962913145,-0.129409522551,25.));
#67 = VECTOR('',#68,1.);
#68 = DIRECTION('',(0.,1.,0.));
#69 = ORIENTED_EDGE('',*,*,#70,.F.);
#70 = EDGE_CURVE('',#71,#63,#73,.T.);
#71 = VERTEX_POINT('',#72);
#72 = CARTESIAN_POINT('',(0.482962913145,0.129409522551,0.));
#73 = LINE('',#74,#75);
#74 = CARTESIAN_POINT('',(0.482962913145,0.129409522551,0.));
#75 = VECTOR('',#76,1.);
#76 = DIRECTION('',(0.,0.,1.));
#77 = ORIENTED_EDGE('',*,*,#78,.F.);
#78 = EDGE_CURVE('',#40,#71,#79,.T.);
#79 = LINE('',#80,#81);
#80 = CARTESIAN_POINT('',(0.482962913145,-0.129409522551,0.));
#81 = VECTOR('',#82,1.);
#82 = DIRECTION('',(0.,1.,0.));
#83 = PLANE('',#84);
#84 = AXIS2_PLACEMENT_3D('',#85,#86,#87);
#85 = CARTESIAN_POINT('',(0.482962913145,-0.129409522551,0.));
#86 = DIRECTION('',(-1.,0.,0.));
#87 = DIRECTION('',(0.,1.,0.));
#88 = ADVANCED_FACE('',(#89),#114,.F.);
#89 = FACE_BOUND('',#90,.F.);
#90 = EDGE_LOOP('',(#91,#92,#100,#108));
#91 = ORIENTED_EDGE('',*,*,#70,.T.);
#92 = ORIENTED_EDGE('',*,*,#93,.T.);
#93 = EDGE_CURVE('',#63,#94,#96,.T.);
#94 = VERTEX_POINT('',#95);
#95 = CARTESIAN_POINT('',(0.353553390593,0.353553390593,25.));
#96 = LINE('',#97,#98);
#97 = CARTESIAN_POINT('',(0.482962913145,0.129409522551,25.));
#98 = VECTOR('',#99,1.);
#99 = DIRECTION('',(-0.5,0.866025403784,0.));
#100 = ORIENTED_EDGE('',*,*,#101,.F.);
#101 = EDGE_CURVE('',#102,#94,#104,.T.);
#102 = VERTEX_POINT('',#103);
#103 = CARTESIAN_POINT('',(0.353553390593,0.353553390593,0.));
#104 = LINE('',#105,#106);
#105 = CARTESIAN_POINT('',(0.353553390593,0.353553390593,0.));
#106 = VECTOR('',#107,1.);
#107 = DIRECTION('',(0.,0.,1.));
#108 = ORIENTED_EDGE('',*,*,#109,.F.);
#109 = EDGE_CURVE('',#71,#102,#110,.T.);
#110 = LINE('',#111,#112);
#111 = CARTESIAN_POINT('',(0.482962913145,0.129409522551,0.));
#112 = VECTOR('',#113,1.);
#113 = DIRECTION('',(-0.5,0.866025403784,0.));
#114 = PLANE('',#115);
#115 = AXIS2_PLACEMENT_3D('',#116,#117,#118);
#116 = CARTESIAN_POINT('',(0.482962913145,0.129409522551,0.));
#117 = DIRECTION('',(-0.866025403784,-0.5,0.));
#118 = DIRECTION('',(-0.5,0.866025403784,0.));
#119 = ADVANCED_FACE('',(#120),#145,.F.);
#120 = FACE_BOUND('',#121,.F.);
#121 = EDGE_LOOP('',(#122,#123,#131,#139));
#122 = ORIENTED_EDGE('',*,*,#101,.T.);
#123 = ORIENTED_EDGE('',*,*,#124,.T.);
#124 = EDGE_CURVE('',#94,#125,#127,.T.);
#125 = VERTEX_POINT('',#126);
#126 = CARTESIAN_POINT('',(0.129409522551,0.482962913145,25.));
#127 = LINE('',#128,#129);
#128 = CARTESIAN_POINT('',(0.353553390593,0.353553390593,25.));
#129 = VECTOR('',#130,1.);
#130 = DIRECTION('',(-0.866025403784,0.5,0.));
#131 = ORIENTED_EDGE('',*,*,#132,.F.);
#132 = EDGE_CURVE('',#133,#125,#135,.T.);
#133 = VERTEX_POINT('',#134);
#134 = CARTESIAN_POINT('',(0.129409522551,0.482962913145,0.));
#135 = LINE('',#136,#137);
#136 = CARTESIAN_POINT('',(0.129409522551,0.482962913145,0.));
#137 = VECTOR('',#138,1.);
#138 = DIRECTION('',(0.,0.,1.));
#139 = ORIENTED_EDGE('',*,*,#140,.F.);
#140 = EDGE_CURVE('',#102,#133,#141,.T.);
#141 = LINE('',#142,#143);
#142 = CARTESIAN_POINT('',(0.353553390593,0.353553390593,0.));
#143 = VECTOR('',#144,1.);
#144 = DIRECTION('',(-0.866025403784,0.5,0.));
#145 = PLANE('',#146);
#146 = AXIS2_PLACEMENT_3D('',#147,#148,#149);
#147 = CARTESIAN_POINT('',(0.353553390593,0.353553390593,0.));
#148 = DIRECTION('',(-0.5,-0.866025403784,0.));
#149 = DIRECTION('',(-0.866025403784,0.5,0.));
#150 = ADVANCED_FACE('',(#151),#176,.F.);
#151 = FACE_BOUND('',#152,.F.);
#152 = EDGE_LOOP('',(#153,#154,#162,#170));
#153 = ORIENTED_EDGE('',*,*,#132,.T.);
#154 = ORIENTED_EDGE('',*,*,#155,.T.);
#155 = EDGE_CURVE('',#125,#156,#158,.T.);
#156 = VERTEX_POINT('',#157);
#157 = CARTESIAN_POINT('',(-0.129409522551,0.482962913145,25.));
#158 = LINE('',#159,#160);
#159 = CARTESIAN_POINT('',(0.129409522551,0.482962913145,25.));
#160 = VECTOR('',#161,1.);
#161 = DIRECTION('',(-1.,0.,0.));
#162 = ORIENTED_EDGE('',*,*,#163,.F.);
#163 = EDGE_CURVE('',#164,#156,#166,.T.);
#164 = VERTEX_POINT('',#165);
#165 = CARTESIAN_POINT('',(-0.129409522551,0.482962913145,0.));
#166 = LINE('',#167,#168);
#167 = CARTESIAN_POINT('',(-0.129409522551,0.482962913145,0.));
#168 = VECTOR('',#169,1.);
#169 = DIRECTION('',(0.,0.,1.));
#170 = ORIENTED_EDGE('',*,*,#171,.F.);
#171 = EDGE_CURVE('',#133,#164,#172,.T.);
#172 = LINE('',#173,#174);
#173 = CARTESIAN_POINT('',(0.129409522551,0.482962913145,0.));
#174 = VECTOR('',#175,1.);
#175 = DIRECTION('',(-1.,0.,0.));
#176 = PLANE('',#177);
#177 = AXIS2_PLACEMENT_3D('',#178,#179,#180);
#178 = CARTESIAN_POINT('',(0.129409522551,0.482962913145,0.));
#179 = DIRECTION('',(0.,-1.,0.));
#180 = DIRECTION('',(-1.,0.,0.));
#181 = ADVANCED_FACE('',(#182),#207,.F.);
#182 = FACE_BOUND('',#183,.F.);
#183 = EDGE_LOOP('',(#184,#185,#193,#201));
#184 = ORIENTED_EDGE('',*,*,#163,.T.);
#185 = ORIENTED_EDGE('',*,*,#186,.T.);
#186 = EDGE_CURVE('',#156,#187,#189,.T.);
#187 = VERTEX_POINT('',#188);
#188 = CARTESIAN_POINT('',(-0.353553390593,0.353553390593,25.));
#189 = LINE('',#190,#191);
#190 = CARTESIAN_POINT('',(-0.129409522551,0.482962913145,25.));
#191 = VECTOR('',#192,1.);
#192 = DIRECTION('',(-0.866025403784,-0.5,0.));
#193 = ORIENTED_EDGE('',*,*,#194,.F.);
#194 = EDGE_CURVE('',#195,#187,#197,.T.);
#195 = VERTEX_POINT('',#196);
#196 = CARTESIAN_POINT('',(-0.353553390593,0.353553390593,0.));
#197 = LINE('',#198,#199);
#198 = CARTESIAN_POINT('',(-0.353553390593,0.353553390593,0.));
#199 = VECTOR('',#200,1.);
#200 = DIRECTION('',(0.,0.,1.));
#201 = ORIENTED_EDGE('',*,*,#202,.F.);
#202 = EDGE_CURVE('',#164,#195,#203,.T.);
#203 = LINE('',#204,#205);
#204 = CARTESIAN_POINT('',(-0.129409522551,0.482962913145,0.));
#205 = VECTOR('',#206,1.);
#206 = DIRECTION('',(-0.866025403784,-0.5,0.));
#207 = PLANE('',#208);
#208 = AXIS2_PLACEMENT_3D('',#209,#210,#211);
#209 = CARTESIAN_POINT('',(-0.129409522551,0.482962913145,0.));
#210 = DIRECTION('',(0.5,-0.866025403784,0.));
#211 = DIRECTION('',(-0.866025403784,-0.5,0.));
#212 = ADVANCED_FACE('',(#213),#238,.F.);
#213 = FACE_BOUND('',#214,.F.);
#214 = EDGE_LOOP('',(#215,#216,#224,#232));
#215 = ORIENTED_EDGE('',*,*,#194,.T.);
#216 = ORIENTED_EDGE('',*,*,#217,.T.);
#217 = EDGE_CURVE('',#187,#218,#220,.T.);
#218 = VERTEX_POINT('',#219);
#219 = CARTESIAN_POINT('',(-0.482962913145,0.129409522551,25.));
#220 = LINE('',#221,#222);
#221 = CARTESIAN_POINT('',(-0.353553390593,0.353553390593,25.));
#222 = VECTOR('',#223,1.);
#223 = DIRECTION('',(-0.5,-0.866025403784,0.));
#224 = ORIENTED_EDGE('',*,*,#225,.F.);
#225 = EDGE_CURVE('',#226,#218,#228,.T.);
#226 = VERTEX_POINT('',#227);
#227 = CARTESIAN_POINT('',(-0.482962913145,0.129409522551,0.));
#228 = LINE('',#229,#230);
#229 = CARTESIAN_POINT('',(-0.482962913145,0.129409522551,0.));
#230 = VECTOR('',#231,1.);
#231 = DIRECTION('',(0.,0.,1.));
#232 = ORIENTED_EDGE('',*,*,#233,.F.);
#233 = EDGE_CURVE('',#195,#226,#234,.T.);
#234 = LINE('',#235,#236);
#235 = CARTESIAN_POINT('',(-0.353553390593,0.353553390593,0.));
#236 = VECTOR('',#237,1.);
#237 = DIRECTION('',(-0.5,-0.866025403784,0.));
#238 = PLANE('',#239);
#239 = AXIS2_PLACEMENT_3D('',#240,#241,#242);
#240 = CARTESIAN_POINT('',(-0.353553390593,0.353553390593,0.));
#241 = DIRECTION('',(0.866025403784,-0.5,0.));
#242 = DIRECTION('',(-0.5,-0.866025403784,0.));
#243 = ADVANCED_FACE('',(#244),#269,.F.);
#244 = FACE_BOUND('',#245,.F.);
#245 = EDGE_LOOP('',(#246,#247,#255,#263));
#246 = ORIENTED_EDGE('',*,*,#225,.T.);
#247 = ORIENTED_EDGE('',*,*,#248,.T.);
#248 = EDGE_CURVE('',#218,#249,#251,.T.);
#249 = VERTEX_POINT('',#250);
#250 = CARTESIAN_POINT('',(-0.482962913145,-0.129409522551,25.));
#251 = LINE('',#252,#253);
#252 = CARTESIAN_POINT('',(-0.482962913145,0.129409522551,25.));
#253 = VECTOR('',#254,1.);
#254 = DIRECTION('',(-2.1E-16,-1.,0.));
#255 = ORIENTED_EDGE('',*,*,#256,.F.);
#256 = EDGE_CURVE('',#257,#249,#259,.T.);
#257 = VERTEX_POINT('',#258);
#258 = CARTESIAN_POINT('',(-0.482962913145,-0.129409522551,0.));
#259 = LINE('',#260,#261);
#260 = CARTESIAN_POINT('',(-0.482962913145,-0.129409522551,0.));
#261 = VECTOR('',#262,1.);
#262 = DIRECTION('',(0.,0.,1.));
#263 = ORIENTED_EDGE('',*,*,#264,.F.);
#264 = EDGE_CURVE('',#226,#257,#265,.T.);
#265 = LINE('',#266,#267);
#266 = CARTESIAN_POINT('',(-0.482962913145,0.129409522551,0.));
#267 = VECTOR('',#268,1.);
#268 = DIRECTION('',(-2.1E-16,-1.,0.));
#269 = PLANE('',#270);
#270 = AXIS2_PLACEMENT_3D('',#271,#272,#273);
#271 = CARTESIAN_POINT('',(-0.482962913145,0.129409522551,0.));
#272 = DIRECTION('',(1.,-2.1E-16,0.));
#273 = DIRECTION('',(-2.1E-16,-1.,0.));
#274 = ADVANCED_FACE('',(#275),#300,.F.);
#275 = FACE_BOUND('',#276,.F.);
#276 = EDGE_LOOP('',(#277,#278,#286,#294));
#277 = ORIENTED_EDGE('',*,*,#256,.T.);
#278 = ORIENTED_EDGE('',*,*,#279,.T.);
#279 = EDGE_CURVE('',#249,#280,#282,.T.);
#280 = VERTEX_POINT('',#281);
#281 = CARTESIAN_POINT('',(-0.353553390593,-0.353553390593,25.));
#282 = LINE('',#283,#284);
#283 = CARTESIAN_POINT('',(-0.482962913145,-0.129409522551,25.));
#284 = VECTOR('',#285,1.);
#285 = DIRECTION('',(0.5,-0.866025403784,0.));
#286 = ORIENTED_EDGE('',*,*,#287,.F.);
#287 = EDGE_CURVE('',#288,#280,#290,.T.);
#288 = VERTEX_POINT('',#289);
#289 = CARTESIAN_POINT('',(-0.353553390593,-0.353553390593,0.));
#290 = LINE('',#291,#292);
#291 = CARTESIAN_POINT('',(-0.353553390593,-0.353553390593,0.));
#292 = VECTOR('',#293,1.);
#293 = DIRECTION('',(0.,0.,1.));
#294 = ORIENTED_EDGE('',*,*,#295,.F.);
#295 = EDGE_CURVE('',#257,#288,#296,.T.);
#296 = LINE('',#297,#298);
#297 = CARTESIAN_POINT('',(-0.482962913145,-0.129409522551,0.));
#298 = VECTOR('',#299,1.);
#299 = DIRECTION('',(0.5,-0.866025403784,0.));
#300 = PLANE('',#301);
#301 = AXIS2_PLACEMENT_3D('',#302,#303,#304);
#302 = CARTESIAN_POINT('',(-0.482962913145,-0.129409522551,0.));
#303 = DIRECTION('',(0.866025403784,0.5,0.));
#304 = DIRECTION('',(0.5,-0.866025403784,0.));
#305 = ADVANCED_FACE('',(#306),#331,.F.);
#306 = FACE_BOUND('',#307,.F.);
#307 = EDGE_LOOP('',(#308,#309,#317,#325));
#308 = ORIENTED_EDGE('',*,*,#287,.T.);
#309 = ORIENTED_EDGE('',*,*,#310,.T.);
#310 = EDGE_CURVE('',#280,#311,#313,.T.);
#311 = VERTEX_POINT('',#312);
#312 = CARTESIAN_POINT('',(-0.129409522551,-0.482962913145,25.));
#313 = LINE('',#314,#315);
#314 = CARTESIAN_POINT('',(-0.353553390593,-0.353553390593,25.));
#315 = VECTOR('',#316,1.);
#316 = DIRECTION('',(0.866025403784,-0.5,0.));
#317 = ORIENTED_EDGE('',*,*,#318,.F.);
#318 = EDGE_CURVE('',#319,#311,#321,.T.);
#319 = VERTEX_POINT('',#320);
#320 = CARTESIAN_POINT('',(-0.129409522551,-0.482962913145,0.));
#321 = LINE('',#322,#323);
#322 = CARTESIAN_POINT('',(-0.129409522551,-0.482962913145,0.));
#323 = VECTOR('',#324,1.);
#324 = DIRECTION('',(0.,0.,1.));
#325 = ORIENTED_EDGE('',*,*,#326,.F.);
#326 = EDGE_CURVE('',#288,#319,#327,.T.);
#327 = LINE('',#328,#329);
#328 = CARTESIAN_POINT('',(-0.353553390593,-0.353553390593,0.));
#329 = VECTOR('',#330,1.);
#330 = DIRECTION('',(0.866025403784,-0.5,0.));
#331 = PLANE('',#332);
#332 = AXIS2_PLACEMENT_3D('',#333,#334,#335);
#333 = CARTESIAN_POINT('',(-0.353553390593,-0.353553390593,0.));
#334 = DIRECTION('',(0.5,0.866025403784,0.));
#335 = DIRECTION('',(0.866025403784,-0.5,0.));
#336 = ADVANCED_FACE('',(#337),#362,.F.);
#337 = FACE_BOUND('',#338,.F.);
#338 = EDGE_LOOP('',(#339,#340,#348,#356));
#339 = ORIENTED_EDGE('',*,*,#318,.T.);
#340 = ORIENTED_EDGE('',*,*,#341,.T.);
#341 = EDGE_CURVE('',#311,#342,#344,.T.);
#342 = VERTEX_POINT('',#343);
#343 = CARTESIAN_POINT('',(0.129409522551,-0.482962913145,25.));
#344 = LINE('',#345,#346);
#345 = CARTESIAN_POINT('',(-0.129409522551,-0.482962913145,25.));
#346 = VECTOR('',#347,1.);
#347 = DIRECTION('',(1.,-4.3E-16,0.));
#348 = ORIENTED_EDGE('',*,*,#349,.F.);
#349 = EDGE_CURVE('',#350,#342,#352,.T.);
#350 = VERTEX_POINT('',#351);
#351 = CARTESIAN_POINT('',(0.129409522551,-0.482962913145,0.));
#352 = LINE('',#353,#354);
#353 = CARTESIAN_POINT('',(0.129409522551,-0.482962913145,0.));
#354 = VECTOR('',#355,1.);
#355 = DIRECTION('',(0.,0.,1.));
#356 = ORIENTED_EDGE('',*,*,#357,.F.);
#357 = EDGE_CURVE('',#319,#350,#358,.T.);
#358 = LINE('',#359,#360);
#359 = CARTESIAN_POINT('',(-0.129409522551,-0.482962913145,0.));
#360 = VECTOR('',#361,1.);
#361 = DIRECTION('',(1.,-4.3E-16,0.));
#362 = PLANE('',#363);
#363 = AXIS2_PLACEMENT_3D('',#364,#365,#366);
#364 = CARTESIAN_POINT('',(-0.129409522551,-0.482962913145,0.));
#365 = DIRECTION('',(4.3E-16,1.,0.));
#366 = DIRECTION('',(1.,-4.3E-16,0.));
#367 = ADVANCED_FACE('',(#368),#384,.F.);
#368 = FACE_BOUND('',#369,.F.);
#369 = EDGE_LOOP('',(#370,#371,#377,#378));
#370 = ORIENTED_EDGE('',*,*,#349,.T.);
#371 = ORIENTED_EDGE('',*,*,#372,.T.);
#372 = EDGE_CURVE('',#342,#24,#373,.T.);
#373 = LINE('',#374,#375);
#374 = CARTESIAN_POINT('',(0.129409522551,-0.482962913145,25.));
#375 = VECTOR('',#376,1.);
#376 = DIRECTION('',(0.866025403784,0.5,0.));
#377 = ORIENTED_EDGE('',*,*,#21,.F.);
#378 = ORIENTED_EDGE('',*,*,#379,.F.);
#379 = EDGE_CURVE('',#350,#22,#380,.T.);
#380 = LINE('',#381,#382);
#381 = CARTESIAN_POINT('',(0.129409522551,-0.482962913145,0.));
#382 = VECTOR('',#383,1.);
#383 = DIRECTION('',(0.866025403784,0.5,0.));
#384 = PLANE('',#385);
#385 = AXIS2_PLACEMENT_3D('',#386,#387,#388);
#386 = CARTESIAN_POINT('',(0.129409522551,-0.482962913145,0.));
#387 = DIRECTION('',(-0.5,0.866025403784,0.));
#388 = DIRECTION('',(0.866025403784,0.5,0.));
#389 = ADVANCED_FACE('',(#390),#404,.F.);
#390 = FACE_BOUND('',#391,.F.);
#391 = EDGE_LOOP('',(#392,#393,#394,#395,#396,#397,#398,#399,#400,#401,
    #402,#403));
#392 = ORIENTED_EDGE('',*,*,#47,.T.);
#393 = ORIENTED_EDGE('',*,*,#78,.T.);
#394 = ORIENTED_EDGE('',*,*,#109,.T.);
#395 = ORIENTED_EDGE('',*,*,#140,.T.);
#396 = ORIENTED_EDGE('',*,*,#171,.T.);
#397 = ORIENTED_EDGE('',*,*,#202,.T.);
#398 = ORIENTED_EDGE('',*,*,#233,.T.);
#399 = ORIENTED_EDGE('',*,*,#264,.T.);
#400 = ORIENTED_EDGE('',*,*,#295,.T.);
#401 = ORIENTED_EDGE('',*,*,#326,.T.);
#402 = ORIENTED_EDGE('',*,*,#357,.T.);
#403 = ORIENTED_EDGE('',*,*,#379,.T.);
#404 = PLANE('',#405);
#405 = AXIS2_PLACEMENT_3D('',#406,#407,#408);
#406 = CARTESIAN_POINT('',(0.,-3.E-17,0.));
#407 = DIRECTION('',(0.,0.,1.));
#408 = DIRECTION('',(1.,0.,0.));
#409 = ADVANCED_FACE('',(#410),#424,.T.);
#410 = FACE_BOUND('',#411,.T.);
#411 = EDGE_LOOP('',(#412,#413,#414,#415,#416,#417,#418,#419,#420,#421,
    #422,#423));
#412 = ORIENTED_EDGE('',*,*,#31,.T.);
#413 = ORIENTED_EDGE('',*,*,#62,.T.);
#414 = ORIENTED_EDGE('',*,*,#93,.T.);
#415 = ORIENTED_EDGE('',*,*,#124,.T.);
#416 = ORIENTED_EDGE('',*,*,#155,.T.);
#417 = ORIENTED_EDGE('',*,*,#186,.T.);
#418 = ORIENTED_EDGE('',*,*,#217,.T.);
#419 = ORIENTED_EDGE('',*,*,#248,.T.);
#420 = ORIENTED_EDGE('',*,*,#279,.T.);
#421 = ORIENTED_EDGE('',*,*,#310,.T.);
#422 = ORIENTED_EDGE('',*,*,#341,.T.);
#423 = ORIENTED_EDGE('',*,*,#372,.T.);
#424 = PLANE('',#425);
#425 = AXIS2_PLACEMENT_3D('',#426,#427,#428);
#426 = CARTESIAN_POINT('',(0.,-3.E-17,25.));
#427 = DIRECTION('',(0.,0.,1.));
#428 = DIRECTION('',(1.,0.,0.));
#429 = ( GEOMETRIC_REPRESENTATION_CONTEXT(3) 
GLOBAL_UNCERTAINTY_ASSIGNED_CONTEXT((#433)) GLOBAL_UNIT_ASSIGNED_CONTEXT
((#430,#431,#432)) REPRESENTATION_CONTEXT('Context #1',
  '3D Context with UNIT and UNCERTAINTY') );
#430 = ( LENGTH_UNIT() NAMED_UNIT(*) SI_UNIT(.MILLI.,.METRE.) );
#431 = ( NAMED_UNIT(*) PLANE_ANGLE_UNIT() SI_UNIT($,.RADIAN.) );
#432 = ( NAMED_UNIT(*) SI_UNIT($,.STERADIAN.) SOLID_ANGLE_UNIT() );
#433 = UNCERTAINTY_MEASURE_WITH_UNIT(LENGTH_MEASURE(1.E-07),#430,
  'distance_accuracy_value','confusion accuracy');
#434 = PRODUCT_RELATED_PRODUCT_CATEGORY('part',$,(#7));
#435 = MECHANICAL_DESIGN_GEOMETRIC_PRESENTATION_REPRESENTATION('',(#436)
  ,#429);
#436 = STYLED_ITEM('color',(#437),#15);
#437 = PRESENTATION_STYLE_ASSIGNMENT((#438,#446));
#438 = SURFACE_STYLE_USAGE(.BOTH.,#439);
#439 = SURFACE_SIDE_STYLE('',(#440,#444));
#440 = SURFACE_STYLE_FILL_AREA(#441);
#441 = FILL_AREA_STYLE('',(#442));
#442 = FILL_AREA_STYLE_COLOUR('',#443);
#443 = COLOUR_RGB('',0.666666687201,1.,1.);
#444 = SURFACE_STYLE_RENDERING_WITH_PROPERTIES(.NORMAL_SHADING.,#443,(
    #445));
#445 = SURFACE_STYLE_TRANSPARENT(0.850000023842);
#446 = CURVE_STYLE('',#447,POSITIVE_LENGTH_MEASURE(0.1),#448);
#447 = DRAUGHTING_PRE_DEFINED_CURVE_FONT('continuous');
#448 = COLOUR_RGB('',9.803921802644E-02,9.803921802644E-02,
  9.803921802644E-02);
ENDSEC;
END-ISO-10303-21;
